ISO-10303-21;
HEADER;
FILE_DESCRIPTION (( 'STEP AP214' ),
    '1' );
FILE_NAME ('am-3709 ARTI 0.4375 Brass Axle Tube.STEP',
    '2021-06-21T21:32:36',
    ( '' ),
    ( '' ),
    'SwSTEP 2.0',
    'SolidWorks 2021',
    '' );
FILE_SCHEMA (( 'AUTOMOTIVE_DESIGN' ));
ENDSEC;

DATA;
#1 =( CONVERSION_BASED_UNIT ( 'INCH', #21 ) LENGTH_UNIT ( ) NAMED_UNIT ( #179 ) );
#2 = AXIS2_PLACEMENT_3D ( 'NONE', #192, #154, #137 ) ;
#3 = PRESENTATION_STYLE_ASSIGNMENT (( #121 ) ) ;
#4 = EDGE_CURVE ( 'NONE', #196, #84, #155, .T. ) ;
#5 = PRODUCT_DEFINITION_FORMATION_WITH_SPECIFIED_SOURCE ( 'ANY', '', #103, .NOT_KNOWN. ) ;
#6 = EDGE_CURVE ( 'NONE', #18, #162, #210, .T. ) ;
#7 = ORIENTED_EDGE ( 'NONE', *, *, #96, .F. ) ;
#8 = EDGE_LOOP ( 'NONE', ( #139, #59 ) ) ;
#9 = ORIENTED_EDGE ( 'NONE', *, *, #208, .F. ) ;
#10 = DIRECTION ( 'NONE',  ( -0.000000000000000000, -1.000000000000000000, -0.000000000000000000 ) ) ;
#11 = ORIENTED_EDGE ( 'NONE', *, *, #22, .T. ) ;
#12 = CYLINDRICAL_SURFACE ( 'NONE', #171, 0.1894999999999999740 ) ;
#13 = AXIS2_PLACEMENT_3D ( 'NONE', #58, #145, #27 ) ;
#14 =( LENGTH_UNIT ( ) NAMED_UNIT ( * ) SI_UNIT ( $, .METRE. ) );
#15 = DIRECTION ( 'NONE',  ( 0.000000000000000000, 1.000000000000000000, 0.000000000000000000 ) ) ;
#16 = AXIS2_PLACEMENT_3D ( 'NONE', #215, #197, #216 ) ;
#17 = FILL_AREA_STYLE_COLOUR ( '', #115 ) ;
#18 = VERTEX_POINT ( 'NONE', #129 ) ;
#19 = ORIENTED_EDGE ( 'NONE', *, *, #208, .T. ) ;
#20 = AXIS2_PLACEMENT_3D ( 'NONE', #92, #15, #113 ) ;
#21 = LENGTH_MEASURE_WITH_UNIT ( LENGTH_MEASURE( 0.02539999999999999897 ), #191 );
#22 = EDGE_CURVE ( 'NONE', #26, #54, #94, .T. ) ;
#23 = DIRECTION ( 'NONE',  ( 0.000000000000000000, 0.000000000000000000, 1.000000000000000000 ) ) ;
#24 = PRESENTATION_LAYER_ASSIGNMENT (  '', '', ( #156 ) ) ;
#25 = DIRECTION ( 'NONE',  ( 0.000000000000000000, 1.000000000000000000, 0.000000000000000000 ) ) ;
#26 = VERTEX_POINT ( 'NONE', #39 ) ;
#27 = DIRECTION ( 'NONE',  ( 0.000000000000000000, 0.000000000000000000, 1.000000000000000000 ) ) ;
#28 = EDGE_CURVE ( 'NONE', #26, #85, #44, .T. ) ;
#29 = AXIS2_PLACEMENT_3D ( 'NONE', #207, #151, #34 ) ;
#30 = ORIENTED_EDGE ( 'NONE', *, *, #96, .T. ) ;
#31 = FACE_BOUND ( 'NONE', #38, .T. ) ;
#32 = CARTESIAN_POINT ( 'NONE',  ( 2.675853256136966687E-17, 1.000000000000000000, 0.2184999999999999998 ) ) ;
#33 = CARTESIAN_POINT ( 'NONE',  ( 0.000000000000000000, 1.000000000000000000, 0.000000000000000000 ) ) ;
#34 = DIRECTION ( 'NONE',  ( 0.000000000000000000, -0.000000000000000000, 1.000000000000000000 ) ) ;
#35 = LENGTH_MEASURE_WITH_UNIT ( LENGTH_MEASURE( 0.02539999999999999897 ), #14 );
#36 = APPLICATION_PROTOCOL_DEFINITION ( 'draft international standard', 'automotive_design', 1998, #114 ) ;
#37 = EDGE_CURVE ( 'NONE', #54, #117, #131, .T. ) ;
#38 = EDGE_LOOP ( 'NONE', ( #67, #30 ) ) ;
#39 = CARTESIAN_POINT ( 'NONE',  ( 0.000000000000000000, 1.000000000000000000, -0.1894999999999999740 ) ) ;
#40 = MECHANICAL_DESIGN_GEOMETRIC_PRESENTATION_REPRESENTATION (  '', ( #167 ), #95 ) ;
#41 = ORIENTED_EDGE ( 'NONE', *, *, #195, .F. ) ;
#42 = EDGE_CURVE ( 'NONE', #54, #26, #65, .T. ) ;
#43 = DIRECTION ( 'NONE',  ( 0.000000000000000000, 0.000000000000000000, -1.000000000000000000 ) ) ;
#44 = LINE ( 'NONE', #178, #138 ) ;
#45 = AXIS2_PLACEMENT_3D ( 'NONE', #91, #143, #43 ) ;
#46 = ADVANCED_FACE ( 'NONE', ( #200 ), #110, .F. ) ;
#47 = FACE_OUTER_BOUND ( 'NONE', #56, .T. ) ;
#48 = DIRECTION ( 'NONE',  ( -0.000000000000000000, -1.000000000000000000, -0.000000000000000000 ) ) ;
#49 = CARTESIAN_POINT ( 'NONE',  ( 0.000000000000000000, 1.000000000000000000, 0.000000000000000000 ) ) ;
#50 = ORIENTED_EDGE ( 'NONE', *, *, #42, .F. ) ;
#51 = SURFACE_STYLE_FILL_AREA ( #52 ) ;
#52 = FILL_AREA_STYLE ('',( #17 ) ) ;
#53 = ORIENTED_EDGE ( 'NONE', *, *, #37, .T. ) ;
#54 = VERTEX_POINT ( 'NONE', #180 ) ;
#55 = ORIENTED_EDGE ( 'NONE', *, *, #142, .F. ) ;
#56 = EDGE_LOOP ( 'NONE', ( #68, #19 ) ) ;
#57 =( GEOMETRIC_REPRESENTATION_CONTEXT ( 3 ) GLOBAL_UNCERTAINTY_ASSIGNED_CONTEXT ( ( #185 ) ) GLOBAL_UNIT_ASSIGNED_CONTEXT ( ( #1, #172, #82 ) ) REPRESENTATION_CONTEXT ( 'NONE', 'WORKASPACE' ) );
#58 = CARTESIAN_POINT ( 'NONE',  ( 0.000000000000000000, 1.000000000000000000, 0.000000000000000000 ) ) ;
#59 = ORIENTED_EDGE ( 'NONE', *, *, #81, .F. ) ;
#60 = DIRECTION ( 'NONE',  ( 0.000000000000000000, 1.000000000000000000, 0.000000000000000000 ) ) ;
#61 = VECTOR ( 'NONE', #48, 39.37007874015748143 ) ;
#62 = DIRECTION ( 'NONE',  ( -0.000000000000000000, -1.000000000000000000, -0.000000000000000000 ) ) ;
#63 =( NAMED_UNIT ( * ) SI_UNIT ( $, .STERADIAN. ) SOLID_ANGLE_UNIT ( ) );
#64 = LINE ( 'NONE', #170, #223 ) ;
#65 = CIRCLE ( 'NONE', #211, 0.1894999999999999740 ) ;
#66 = LINE ( 'NONE', #168, #61 ) ;
#67 = ORIENTED_EDGE ( 'NONE', *, *, #142, .T. ) ;
#68 = ORIENTED_EDGE ( 'NONE', *, *, #6, .T. ) ;
#69 = DIRECTION ( 'NONE',  ( 0.000000000000000000, 1.000000000000000000, 0.000000000000000000 ) ) ;
#70 = DIRECTION ( 'NONE',  ( -0.000000000000000000, -1.000000000000000000, -0.000000000000000000 ) ) ;
#71 = UNCERTAINTY_MEASURE_WITH_UNIT (LENGTH_MEASURE( 1.000000000000000082E-05 ), #120, 'distance_accuracy_value', 'NONE');
#72 = DIRECTION ( 'NONE',  ( 0.000000000000000000, 1.000000000000000000, 0.000000000000000000 ) ) ;
#73 = EDGE_LOOP ( 'NONE', ( #75, #50 ) ) ;
#74 = PRODUCT_DEFINITION_CONTEXT ( 'detailed design', #114, 'design' ) ;
#75 = ORIENTED_EDGE ( 'NONE', *, *, #22, .F. ) ;
#76 = FILL_AREA_STYLE_COLOUR ( '', #128 ) ;
#77 = CYLINDRICAL_SURFACE ( 'NONE', #153, 0.2184999999999999998 ) ;
#78 = CARTESIAN_POINT ( 'NONE',  ( 0.000000000000000000, -1.000000000000000000, -0.2184999999999999998 ) ) ;
#79 = ADVANCED_FACE ( 'NONE', ( #166 ), #144, .T. ) ;
#80 = CARTESIAN_POINT ( 'NONE',  ( 0.000000000000000000, 1.000000000000000000, 0.000000000000000000 ) ) ;
#81 = EDGE_CURVE ( 'NONE', #84, #196, #135, .T. ) ;
#82 =( NAMED_UNIT ( * ) SI_UNIT ( $, .STERADIAN. ) SOLID_ANGLE_UNIT ( ) );
#83 = AXIS2_PLACEMENT_3D ( 'NONE', #108, #88, #126 ) ;
#84 = VERTEX_POINT ( 'NONE', #86 ) ;
#85 = VERTEX_POINT ( 'NONE', #181 ) ;
#86 = CARTESIAN_POINT ( 'NONE',  ( 2.675853256136966687E-17, -1.000000000000000000, 0.2184999999999999998 ) ) ;
#87 = CARTESIAN_POINT ( 'NONE',  ( 0.000000000000000000, -1.000000000000000000, 0.000000000000000000 ) ) ;
#88 = DIRECTION ( 'NONE',  ( -0.000000000000000000, -1.000000000000000000, -0.000000000000000000 ) ) ;
#89 = ORIENTED_EDGE ( 'NONE', *, *, #6, .F. ) ;
#90 = AXIS2_PLACEMENT_3D ( 'NONE', #157, #221, #220 ) ;
#91 = CARTESIAN_POINT ( 'NONE',  ( 0.000000000000000000, 1.000000000000000000, 0.000000000000000000 ) ) ;
#92 = CARTESIAN_POINT ( 'NONE',  ( 0.000000000000000000, -1.000000000000000000, 0.000000000000000000 ) ) ;
#93 = CARTESIAN_POINT ( 'NONE',  ( 0.000000000000000000, 1.000000000000000000, 0.000000000000000000 ) ) ;
#94 = CIRCLE ( 'NONE', #16, 0.1894999999999999740 ) ;
#95 =( GEOMETRIC_REPRESENTATION_CONTEXT ( 3 ) GLOBAL_UNCERTAINTY_ASSIGNED_CONTEXT ( ( #71 ) ) GLOBAL_UNIT_ASSIGNED_CONTEXT ( ( #120, #173, #209 ) ) REPRESENTATION_CONTEXT ( 'NONE', 'WORKASPACE' ) );
#96 = EDGE_CURVE ( 'NONE', #117, #85, #122, .T. ) ;
#97 = DIRECTION ( 'NONE',  ( 0.000000000000000000, 0.000000000000000000, -1.000000000000000000 ) ) ;
#98 = DIRECTION ( 'NONE',  ( 0.000000000000000000, -0.000000000000000000, 1.000000000000000000 ) ) ;
#99 = PLANE ( 'NONE',  #111 ) ;
#100 =( LENGTH_UNIT ( ) NAMED_UNIT ( * ) SI_UNIT ( $, .METRE. ) );
#101 = PRODUCT_RELATED_PRODUCT_CATEGORY ( 'part', '', ( #103 ) ) ;
#102 = ORIENTED_EDGE ( 'NONE', *, *, #4, .T. ) ;
#103 = PRODUCT ( 'am-3709 ARTI 0.4375 Brass Axle Tube', 'am-3709 ARTI 0.4375 Brass Axle Tube', '', ( #194 ) ) ;
#104 = DIRECTION ( 'NONE',  ( 0.000000000000000000, 0.000000000000000000, 1.000000000000000000 ) ) ;
#105 = ADVANCED_FACE ( 'NONE', ( #149 ), #12, .F. ) ;
#106 = ORIENTED_EDGE ( 'NONE', *, *, #195, .T. ) ;
#107 = CLOSED_SHELL ( 'NONE', ( #46, #79, #130, #124, #183, #105 ) ) ;
#108 = CARTESIAN_POINT ( 'NONE',  ( 0.000000000000000000, 1.000000000000000000, 0.000000000000000000 ) ) ;
#109 = EDGE_LOOP ( 'NONE', ( #41, #89, #213, #102 ) ) ;
#110 = CYLINDRICAL_SURFACE ( 'NONE', #45, 0.1894999999999999740 ) ;
#111 = AXIS2_PLACEMENT_3D ( 'NONE', #33, #60, #98 ) ;
#112 =( GEOMETRIC_REPRESENTATION_CONTEXT ( 3 ) GLOBAL_UNCERTAINTY_ASSIGNED_CONTEXT ( ( #165 ) ) GLOBAL_UNIT_ASSIGNED_CONTEXT ( ( #204, #134, #63 ) ) REPRESENTATION_CONTEXT ( 'NONE', 'WORKASPACE' ) );
#113 = DIRECTION ( 'NONE',  ( 0.000000000000000000, 0.000000000000000000, 1.000000000000000000 ) ) ;
#114 = APPLICATION_CONTEXT ( 'automotive_design' ) ;
#115 = COLOUR_RGB ( '',0.6470588235294117974, 0.5176470588235293491, 0.000000000000000000 ) ;
#116 = DIRECTION ( 'NONE',  ( 0.000000000000000000, 0.000000000000000000, 1.000000000000000000 ) ) ;
#117 = VERTEX_POINT ( 'NONE', #148 ) ;
#118 = CIRCLE ( 'NONE', #20, 0.1894999999999999740 ) ;
#119 = APPLICATION_PROTOCOL_DEFINITION ( 'draft international standard', 'automotive_design', 1998, #202 ) ;
#120 =( CONVERSION_BASED_UNIT ( 'INCH', #174 ) LENGTH_UNIT ( ) NAMED_UNIT ( #184 ) );
#121 = SURFACE_STYLE_USAGE ( .BOTH. , #141 ) ;
#122 = CIRCLE ( 'NONE', #90, 0.1894999999999999740 ) ;
#123 = EDGE_LOOP ( 'NONE', ( #125, #214, #140, #7 ) ) ;
#124 = ADVANCED_FACE ( 'NONE', ( #150, #31 ), #218, .F. ) ;
#125 = ORIENTED_EDGE ( 'NONE', *, *, #37, .F. ) ;
#126 = DIRECTION ( 'NONE',  ( 0.000000000000000000, 0.000000000000000000, -1.000000000000000000 ) ) ;
#127 = VECTOR ( 'NONE', #70, 39.37007874015748143 ) ;
#128 = COLOUR_RGB ( '',0.6470588235294117974, 0.5176470588235293491, 0.000000000000000000 ) ;
#129 = CARTESIAN_POINT ( 'NONE',  ( 0.000000000000000000, 1.000000000000000000, -0.2184999999999999998 ) ) ;
#130 = ADVANCED_FACE ( 'NONE', ( #47, #169 ), #99, .T. ) ;
#131 = LINE ( 'NONE', #201, #127 ) ;
#132 = SURFACE_SIDE_STYLE ('',( #190 ) ) ;
#133 = DIRECTION ( 'NONE',  ( 0.000000000000000000, 0.000000000000000000, -1.000000000000000000 ) ) ;
#134 =( NAMED_UNIT ( * ) PLANE_ANGLE_UNIT ( ) SI_UNIT ( $, .RADIAN. ) );
#135 = CIRCLE ( 'NONE', #193, 0.2184999999999999998 ) ;
#136 = DIRECTION ( 'NONE',  ( 0.000000000000000000, 1.000000000000000000, 0.000000000000000000 ) ) ;
#137 = DIRECTION ( 'NONE',  ( 1.000000000000000000, 0.000000000000000000, 0.000000000000000000 ) ) ;
#138 = VECTOR ( 'NONE', #10, 39.37007874015748143 ) ;
#139 = ORIENTED_EDGE ( 'NONE', *, *, #4, .F. ) ;
#140 = ORIENTED_EDGE ( 'NONE', *, *, #28, .T. ) ;
#141 = SURFACE_SIDE_STYLE ('',( #51 ) ) ;
#142 = EDGE_CURVE ( 'NONE', #85, #117, #118, .T. ) ;
#143 = DIRECTION ( 'NONE',  ( -0.000000000000000000, -1.000000000000000000, -0.000000000000000000 ) ) ;
#144 = CYLINDRICAL_SURFACE ( 'NONE', #83, 0.2184999999999999998 ) ;
#145 = DIRECTION ( 'NONE',  ( 0.000000000000000000, 1.000000000000000000, 0.000000000000000000 ) ) ;
#146 = ORIENTED_EDGE ( 'NONE', *, *, #81, .T. ) ;
#147 = DIMENSIONAL_EXPONENTS ( 1.000000000000000000, 0.000000000000000000, 0.000000000000000000, 0.000000000000000000, 0.000000000000000000, 0.000000000000000000, 0.000000000000000000 ) ;
#148 = CARTESIAN_POINT ( 'NONE',  ( 2.320705684384234119E-17, -1.000000000000000000, 0.1894999999999999740 ) ) ;
#149 = FACE_OUTER_BOUND ( 'NONE', #123, .T. ) ;
#150 = FACE_OUTER_BOUND ( 'NONE', #8, .T. ) ;
#151 = DIRECTION ( 'NONE',  ( 0.000000000000000000, 1.000000000000000000, 0.000000000000000000 ) ) ;
#152 = EDGE_CURVE ( 'NONE', #18, #196, #64, .T. ) ;
#153 = AXIS2_PLACEMENT_3D ( 'NONE', #80, #206, #97 ) ;
#154 = DIRECTION ( 'NONE',  ( 0.000000000000000000, 0.000000000000000000, 1.000000000000000000 ) ) ;
#155 = CIRCLE ( 'NONE', #163, 0.2184999999999999998 ) ;
#156 = STYLED_ITEM ( 'NONE', ( #222 ), #160 ) ;
#157 = CARTESIAN_POINT ( 'NONE',  ( 0.000000000000000000, -1.000000000000000000, 0.000000000000000000 ) ) ;
#158 = EDGE_LOOP ( 'NONE', ( #9, #106, #146, #175 ) ) ;
#159 = CARTESIAN_POINT ( 'NONE',  ( 0.000000000000000000, -1.000000000000000000, 0.000000000000000000 ) ) ;
#160 = MANIFOLD_SOLID_BREP ( 'Boss-Extrude1', #107 ) ;
#161 = PRODUCT_DEFINITION ( 'UNKNOWN', '', #5, #74 ) ;
#162 = VERTEX_POINT ( 'NONE', #32 ) ;
#163 = AXIS2_PLACEMENT_3D ( 'NONE', #159, #69, #104 ) ;
#164 = CIRCLE ( 'NONE', #198, 0.2184999999999999998 ) ;
#165 = UNCERTAINTY_MEASURE_WITH_UNIT (LENGTH_MEASURE( 1.000000000000000082E-05 ), #204, 'distance_accuracy_value', 'NONE');
#166 = FACE_OUTER_BOUND ( 'NONE', #158, .T. ) ;
#167 = STYLED_ITEM ( 'NONE', ( #3 ), #203 ) ;
#168 = CARTESIAN_POINT ( 'NONE',  ( 2.675853256136966687E-17, 1.000000000000000000, 0.2184999999999999998 ) ) ;
#169 = FACE_BOUND ( 'NONE', #73, .T. ) ;
#170 = CARTESIAN_POINT ( 'NONE',  ( 0.000000000000000000, 1.000000000000000000, -0.2184999999999999998 ) ) ;
#171 = AXIS2_PLACEMENT_3D ( 'NONE', #93, #205, #133 ) ;
#172 =( NAMED_UNIT ( * ) PLANE_ANGLE_UNIT ( ) SI_UNIT ( $, .RADIAN. ) );
#173 =( NAMED_UNIT ( * ) PLANE_ANGLE_UNIT ( ) SI_UNIT ( $, .RADIAN. ) );
#174 = LENGTH_MEASURE_WITH_UNIT ( LENGTH_MEASURE( 0.02539999999999999897 ), #100 );
#175 = ORIENTED_EDGE ( 'NONE', *, *, #152, .F. ) ;
#176 = SHAPE_DEFINITION_REPRESENTATION ( #212, #203 ) ;
#177 = DIRECTION ( 'NONE',  ( 0.000000000000000000, 0.000000000000000000, 1.000000000000000000 ) ) ;
#178 = CARTESIAN_POINT ( 'NONE',  ( 0.000000000000000000, 1.000000000000000000, -0.1894999999999999740 ) ) ;
#179 = DIMENSIONAL_EXPONENTS ( 1.000000000000000000, 0.000000000000000000, 0.000000000000000000, 0.000000000000000000, 0.000000000000000000, 0.000000000000000000, 0.000000000000000000 ) ;
#180 = CARTESIAN_POINT ( 'NONE',  ( 2.320705684384234119E-17, 1.000000000000000000, 0.1894999999999999740 ) ) ;
#181 = CARTESIAN_POINT ( 'NONE',  ( 0.000000000000000000, -1.000000000000000000, -0.1894999999999999740 ) ) ;
#182 = EDGE_LOOP ( 'NONE', ( #11, #53, #55, #199 ) ) ;
#183 = ADVANCED_FACE ( 'NONE', ( #188 ), #77, .T. ) ;
#184 = DIMENSIONAL_EXPONENTS ( 1.000000000000000000, 0.000000000000000000, 0.000000000000000000, 0.000000000000000000, 0.000000000000000000, 0.000000000000000000, 0.000000000000000000 ) ;
#185 = UNCERTAINTY_MEASURE_WITH_UNIT (LENGTH_MEASURE( 1.000000000000000082E-05 ), #1, 'distance_accuracy_value', 'NONE');
#186 = SURFACE_STYLE_USAGE ( .BOTH. , #132 ) ;
#187 = FILL_AREA_STYLE ('',( #76 ) ) ;
#188 = FACE_OUTER_BOUND ( 'NONE', #109, .T. ) ;
#189 = PRESENTATION_LAYER_ASSIGNMENT (  '', '', ( #167 ) ) ;
#190 = SURFACE_STYLE_FILL_AREA ( #187 ) ;
#191 =( LENGTH_UNIT ( ) NAMED_UNIT ( * ) SI_UNIT ( $, .METRE. ) );
#192 = CARTESIAN_POINT ( 'NONE',  ( 0.000000000000000000, 0.000000000000000000, 0.000000000000000000 ) ) ;
#193 = AXIS2_PLACEMENT_3D ( 'NONE', #87, #72, #23 ) ;
#194 = PRODUCT_CONTEXT ( 'NONE', #202, 'mechanical' ) ;
#195 = EDGE_CURVE ( 'NONE', #162, #84, #66, .T. ) ;
#196 = VERTEX_POINT ( 'NONE', #78 ) ;
#197 = DIRECTION ( 'NONE',  ( 0.000000000000000000, 1.000000000000000000, 0.000000000000000000 ) ) ;
#198 = AXIS2_PLACEMENT_3D ( 'NONE', #49, #136, #116 ) ;
#199 = ORIENTED_EDGE ( 'NONE', *, *, #28, .F. ) ;
#200 = FACE_OUTER_BOUND ( 'NONE', #182, .T. ) ;
#201 = CARTESIAN_POINT ( 'NONE',  ( 2.320705684384234119E-17, 1.000000000000000000, 0.1894999999999999740 ) ) ;
#202 = APPLICATION_CONTEXT ( 'automotive_design' ) ;
#203 = ADVANCED_BREP_SHAPE_REPRESENTATION ( 'am-3709 ARTI 0.4375 Brass Axle Tube', ( #160, #2 ), #57 ) ;
#204 =( CONVERSION_BASED_UNIT ( 'INCH', #35 ) LENGTH_UNIT ( ) NAMED_UNIT ( #147 ) );
#205 = DIRECTION ( 'NONE',  ( -0.000000000000000000, -1.000000000000000000, -0.000000000000000000 ) ) ;
#206 = DIRECTION ( 'NONE',  ( -0.000000000000000000, -1.000000000000000000, -0.000000000000000000 ) ) ;
#207 = CARTESIAN_POINT ( 'NONE',  ( 0.000000000000000000, -1.000000000000000000, 0.000000000000000000 ) ) ;
#208 = EDGE_CURVE ( 'NONE', #162, #18, #164, .T. ) ;
#209 =( NAMED_UNIT ( * ) SI_UNIT ( $, .STERADIAN. ) SOLID_ANGLE_UNIT ( ) );
#210 = CIRCLE ( 'NONE', #13, 0.2184999999999999998 ) ;
#211 = AXIS2_PLACEMENT_3D ( 'NONE', #217, #25, #177 ) ;
#212 = PRODUCT_DEFINITION_SHAPE ( 'NONE', 'NONE',  #161 ) ;
#213 = ORIENTED_EDGE ( 'NONE', *, *, #152, .T. ) ;
#214 = ORIENTED_EDGE ( 'NONE', *, *, #42, .T. ) ;
#215 = CARTESIAN_POINT ( 'NONE',  ( 0.000000000000000000, 1.000000000000000000, 0.000000000000000000 ) ) ;
#216 = DIRECTION ( 'NONE',  ( 0.000000000000000000, 0.000000000000000000, 1.000000000000000000 ) ) ;
#217 = CARTESIAN_POINT ( 'NONE',  ( 0.000000000000000000, 1.000000000000000000, 0.000000000000000000 ) ) ;
#218 = PLANE ( 'NONE',  #29 ) ;
#219 = MECHANICAL_DESIGN_GEOMETRIC_PRESENTATION_REPRESENTATION (  '', ( #156 ), #112 ) ;
#220 = DIRECTION ( 'NONE',  ( 0.000000000000000000, 0.000000000000000000, 1.000000000000000000 ) ) ;
#221 = DIRECTION ( 'NONE',  ( 0.000000000000000000, 1.000000000000000000, 0.000000000000000000 ) ) ;
#222 = PRESENTATION_STYLE_ASSIGNMENT (( #186 ) ) ;
#223 = VECTOR ( 'NONE', #62, 39.37007874015748143 ) ;
ENDSEC;
END-ISO-10303-21;
